0
SECTION
2
HEADER
9
$INSUNITS
70
4
9
$ACADVER
1
AC1014
9
$HANDSEED
5
FFFF
0
ENDSEC
0
SECTION
2
TABLES
0
TABLE
2
VPORT
5
8
100
AcDbSymbolTable
0
ENDTAB
0
TABLE
2
LTYPE
5
5
100
AcDbSymbolTable
0
LTYPE
5
14
100
AcDbSymbolTableRecord
100
AcDbLinetypeTableRecord
2
BYBLOCK
70
0
0
LTYPE
5
15
100
AcDbSymbolTableRecord
100
AcDbLinetypeTableRecord
2
BYLAYER
70
0
0
ENDTAB
0
TABLE
2
LAYER
5
2
100
AcDbSymbolTable
70
2
0
LAYER
5
50
100
AcDbSymbolTableRecord
100
AcDbLayerTableRecord
2
0
70
0
6
CONTINUOUS
0
ENDTAB
0
TABLE
2
STYLE
5
3
100
AcDbSymbolTable
70
1
0
STYLE
5
11
100
AcDbSymbolTableRecord
100
AcDbTextStyleTableRecord
2
STANDARD
70
0
0
ENDTAB
0
TABLE
2
VIEW
5
6
100
AcDbSymbolTable
70
0
0
ENDTAB
0
TABLE
2
UCS
5
7
100
AcDbSymbolTable
70
0
0
ENDTAB
0
TABLE
2
APPID
5
9
100
AcDbSymbolTable
70
2
0
APPID
5
12
100
AcDbSymbolTableRecord
100
AcDbRegAppTableRecord
2
ACAD
70
0
0
ENDTAB
0
TABLE
2
DIMSTYLE
5
A
100
AcDbSymbolTable
70
1
0
ENDTAB
0
TABLE
2
BLOCK_RECORD
5
1
100
AcDbSymbolTable
70
1
0
BLOCK_RECORD
5
1F
100
AcDbSymbolTableRecord
100
AcDbBlockTableRecord
2
*MODEL_SPACE
0
BLOCK_RECORD
5
1B
100
AcDbSymbolTableRecord
100
AcDbBlockTableRecord
2
*PAPER_SPACE
0
ENDTAB
0
ENDSEC
0
SECTION
2
BLOCKS
0
BLOCK
5
20
100
AcDbEntity
100
AcDbBlockBegin
2
*MODEL_SPACE
0
ENDBLK
5
21
100
AcDbEntity
100
AcDbBlockEnd
0
BLOCK
5
1C
100
AcDbEntity
100
AcDbBlockBegin
2
*PAPER_SPACE
0
ENDBLK
5
1D
100
AcDbEntity
100
AcDbBlockEnd
0
ENDSEC
0
SECTION
2
ENTITIES
0
LINE
5
100
100
AcDbEntity
8
0
100
AcDbLine
10
-137.12070900714357
20
164.57321834256459
30
0
11
-28.120709007143549
21
164.57321834256459
31
0
0
LINE
5
101
100
AcDbEntity
8
0
100
AcDbLine
10
-28.120709007143549
20
164.57321834256459
30
0
11
-28.120709007143546
21
-435.42678165743547
31
0
0
LINE
5
102
100
AcDbEntity
8
0
100
AcDbLine
10
-28.120709007143546
20
-435.42678165743547
30
0
11
-137.12070900714357
21
-435.42678165743547
31
0
0
LINE
5
103
100
AcDbEntity
8
0
100
AcDbLine
10
-137.12070900714357
20
-435.42678165743547
30
0
11
-137.12070900714357
21
164.57321834256459
31
0
0
LINE
5
104
100
AcDbEntity
8
0
100
AcDbLine
10
-82.62070900714356
20
164.57321834256453
30
0
11
-82.620709007143574
21
110.07321834256456
31
0
0
LINE
5
105
100
AcDbEntity
8
0
100
AcDbLine
10
-82.620709007143574
20
110.07321834256456
30
0
11
-28.12070900714356
21
110.07321834256437
31
0
0
ARC
5
106
100
AcDbEntity
8
0
100
AcDbCircle
10
-82.620709007143574
20
110.07321834256456
30
0
40
54.500000000000021
210
0
220
0
230
1
100
AcDbArc
50
0
51
180
0
LINE
5
107
100
AcDbEntity
8
0
100
AcDbLine
10
-82.620709007143574
20
110.07321834256456
30
0
11
-28.12070900714356
21
110.07321834256437
31
0
0
LINE
5
108
100
AcDbEntity
8
0
100
AcDbLine
10
-82.620709007143574
20
110.07321834256456
30
0
11
-137.1207090071436
21
110.07321834256442
31
0
0
LINE
5
109
100
AcDbEntity
8
0
100
AcDbLine
10
-82.62070900714356
20
-435.42678165743541
30
0
11
-82.620709007143645
21
-380.92678165743541
31
0
0
LINE
5
110
100
AcDbEntity
8
0
100
AcDbLine
10
-82.620709007143645
20
-380.92678165743541
30
0
11
-28.120709007143549
21
-380.92678165743541
31
0
0
ARC
5
111
100
AcDbEntity
8
0
100
AcDbCircle
10
-82.620709007143645
20
-380.92678165743541
30
0
40
54.500000000000099
210
0
220
0
230
1
100
AcDbArc
50
-180
51
0
0
LINE
5
112
100
AcDbEntity
8
0
100
AcDbLine
10
-82.620709007143645
20
-380.92678165743541
30
0
11
-137.12070900714374
21
-380.92678165743541
31
0
0
LINE
5
113
100
AcDbEntity
8
0
100
AcDbLine
10
-82.620709007143645
20
-380.92678165743541
30
0
11
-28.120709007143549
21
-380.92678165743541
31
0
0
LINE
5
114
100
AcDbEntity
8
0
100
AcDbLine
10
-137.1207090071436
20
110.07321834256442
30
0
11
-124.62070900714359
21
110.07321834256437
31
0
0
LINE
5
115
100
AcDbEntity
8
0
100
AcDbLine
10
-124.62070900714359
20
110.07321834256437
30
0
11
-124.62070900714353
21
-380.92678165743541
31
0
0
LINE
5
116
100
AcDbEntity
8
0
100
AcDbLine
10
-124.62070900714353
20
-380.92678165743541
30
0
11
-137.1207090071436
21
-380.92678165743536
31
0
0
LINE
5
117
100
AcDbEntity
8
0
100
AcDbLine
10
-137.1207090071436
20
-380.92678165743536
30
0
11
-137.1207090071436
21
110.07321834256442
31
0
0
LINE
5
118
100
AcDbEntity
8
0
100
AcDbLine
10
-28.12070900714356
20
110.07321834256437
30
0
11
-40.62070900714356
21
110.07321834256442
31
0
0
LINE
5
119
100
AcDbEntity
8
0
100
AcDbLine
10
-40.62070900714356
20
110.07321834256442
30
0
11
-40.620709007143383
21
-380.92678165743541
31
0
0
LINE
5
120
100
AcDbEntity
8
0
100
AcDbLine
10
-40.620709007143383
20
-380.92678165743541
30
0
11
-28.120709007143528
21
-380.92678165743541
31
0
0
LINE
5
121
100
AcDbEntity
8
0
100
AcDbLine
10
-28.120709007143528
20
-380.92678165743541
30
0
11
-28.12070900714356
21
110.07321834256437
31
0
0
LINE
5
122
100
AcDbEntity
8
0
100
AcDbLine
10
-124.62070900714363
20
-183.3322256601767
30
0
11
-82.620709007143631
21
-183.3322256601767
31
0
0
LINE
5
123
100
AcDbEntity
8
0
100
AcDbLine
10
-124.62070900714353
20
-380.92678165743541
30
0
11
-82.620709007143503
21
-380.92678165743536
31
0
0
LINE
5
124
100
AcDbEntity
8
0
100
AcDbLine
10
-82.620709007143503
20
-380.92678165743536
30
0
11
-82.620709007143546
21
-332.92678165743547
31
0
0
LINE
5
125
100
AcDbEntity
8
0
100
AcDbLine
10
-82.620709007143546
20
-332.92678165743547
30
0
11
-124.62070900714359
21
-332.92678165743541
31
0
0
LINE
5
126
100
AcDbEntity
8
0
100
AcDbLine
10
-124.62070900714359
20
-332.92678165743541
30
0
11
-124.62070900714353
21
-380.92678165743541
31
0
0
LWPOLYLINE
5
127
100
AcDbEntity
8
0
100
AcDbPolyline
90
4
70
1
43
0.0
10
-98.62070900714356
20
-332.92678165743541
10
-108.62070900714356
20
-332.92678165743541
10
-108.62070900714356
20
164.57321834256459
10
-98.62070900714356
20
164.57321834256462
0
CIRCLE
5
128
100
AcDbEntity
8
0
100
AcDbCircle
10
-82.620709007143574
20
110.07321834256456
30
0
40
10
210
0
220
0
230
1
0
LINE
5
129
100
AcDbEntity
8
0
100
AcDbLine
10
71.879290992856454
20
-435.42678165743547
30
0
11
71.879290992856454
21
164.57321834256459
31
0
0
LINE
5
130
100
AcDbEntity
8
0
100
AcDbLine
10
168.37929099285662
20
-380.9267816574353
30
0
11
180.8792909928566
21
-380.92678165743536
31
0
0
LINE
5
131
100
AcDbEntity
8
0
100
AcDbLine
10
126.37929099285658
20
110.07321834256453
30
0
11
180.87929099285645
21
110.07321834256447
31
0
0
ARC
5
132
100
AcDbEntity
8
0
100
AcDbCircle
10
126.37929099285658
20
110.07321834256453
30
0
40
54.499999999999872
210
-0
220
0
230
1
100
AcDbArc
50
0
51
180
0
LINE
5
133
100
AcDbEntity
8
0
100
AcDbLine
10
126.37929099285662
20
-380.92678165743541
30
0
11
180.87929099285648
21
-380.92678165743536
31
0
0
LINE
5
134
100
AcDbEntity
8
0
100
AcDbLine
10
71.879290992856454
20
164.57321834256459
30
0
11
180.87929099285645
21
164.57321834256459
31
0
0
LINE
5
135
100
AcDbEntity
8
0
100
AcDbLine
10
71.879290992856852
20
-380.92678165743564
30
0
11
71.879290992856696
21
110.0732183425643
31
0
0
LINE
5
136
100
AcDbEntity
8
0
100
AcDbLine
10
71.879290992856696
20
110.0732183425643
30
0
11
84.37929099285671
21
110.07321834256433
31
0
0
LINE
5
137
100
AcDbEntity
8
0
100
AcDbLine
10
180.87929099285645
20
110.07321834256447
30
0
11
168.37929099285648
21
110.07321834256452
31
0
0
CIRCLE
5
138
100
AcDbEntity
8
0
100
AcDbCircle
10
126.37929099285658
20
110.07321834256456
30
0
40
10
210
0
220
0
230
1
0
LINE
5
139
100
AcDbEntity
8
0
100
AcDbLine
10
126.37929099285662
20
-380.92678165743541
30
0
11
71.879290992856738
21
-380.92678165743558
31
0
0
ARC
5
140
100
AcDbEntity
8
0
100
AcDbCircle
10
126.37929099285662
20
-380.92678165743541
30
0
40
54.499999999999886
210
0
220
0
230
1
100
AcDbArc
50
-180
51
0
0
LINE
5
141
100
AcDbEntity
8
0
100
AcDbLine
10
180.87929099285645
20
164.57321834256459
30
0
11
180.87929099285648
21
-435.42678165743547
31
0
0
LINE
5
142
100
AcDbEntity
8
0
100
AcDbLine
10
126.37929099285662
20
-380.92678165743541
30
0
11
180.87929099285648
21
-380.92678165743536
31
0
0
LINE
5
143
100
AcDbEntity
8
0
100
AcDbLine
10
126.37929099285658
20
110.07321834256453
30
0
11
180.87929099285645
21
110.07321834256447
31
0
0
LINE
5
144
100
AcDbEntity
8
0
100
AcDbLine
10
126.37929099285658
20
110.07321834256453
30
0
11
71.879290992856696
21
110.0732183425643
31
0
0
LINE
5
145
100
AcDbEntity
8
0
100
AcDbLine
10
126.37929099285644
20
164.57321834256453
30
0
11
126.37929099285658
21
110.07321834256453
31
0
0
LINE
5
146
100
AcDbEntity
8
0
100
AcDbLine
10
84.37929099285671
20
110.07321834256433
30
0
11
84.37929099285671
21
-380.92678165743553
31
0
0
LINE
5
147
100
AcDbEntity
8
0
100
AcDbLine
10
180.8792909928566
20
-380.92678165743536
30
0
11
180.87929099285645
21
110.07321834256447
31
0
0
LINE
5
148
100
AcDbEntity
8
0
100
AcDbLine
10
84.37929099285671
20
-380.92678165743553
30
0
11
71.879290992856852
21
-380.92678165743564
31
0
0
LINE
5
149
100
AcDbEntity
8
0
100
AcDbLine
10
180.87929099285648
20
-435.42678165743547
30
0
11
71.879290992856454
21
-435.42678165743547
31
0
0
LINE
5
150
100
AcDbEntity
8
0
100
AcDbLine
10
126.37929099285648
20
-435.42678165743541
30
0
11
126.37929099285662
21
-380.92678165743541
31
0
0
LINE
5
151
100
AcDbEntity
8
0
100
AcDbLine
10
168.37929099285648
20
110.07321834256452
30
0
11
168.37929099285662
21
-380.9267816574353
31
0
0
LINE
5
152
100
AcDbEntity
8
0
100
AcDbLine
10
168.37929099285662
20
-380.9267816574353
30
0
11
126.3792909928566
21
-380.92678165743536
31
0
0
LINE
5
153
100
AcDbEntity
8
0
100
AcDbLine
10
126.3792909928566
20
-380.92678165743536
30
0
11
126.37929099285658
21
-332.9267816574353
31
0
0
LINE
5
154
100
AcDbEntity
8
0
100
AcDbLine
10
126.37929099285658
20
-332.9267816574353
30
0
11
168.37929099285668
21
-332.92678165743541
31
0
0
LINE
5
155
100
AcDbEntity
8
0
100
AcDbLine
10
168.37929099285668
20
-332.92678165743541
30
0
11
168.37929099285662
21
-380.9267816574353
31
0
0
LWPOLYLINE
5
156
100
AcDbEntity
8
0
100
AcDbPolyline
90
4
70
1
43
0.0
10
152.37929099285662
20
164.57321834256459
10
142.37929099285662
20
164.57321834256462
10
142.37929099285662
20
-332.92678165743541
10
152.37929099285662
20
-332.92678165743541
0
LWPOLYLINE
5
157
100
AcDbEntity
8
0
100
AcDbPolyline
90
4
70
1
43
0.0
10
110.37929099285661
20
-235.4267816574355
10
100.37929099285661
20
-235.42678165743547
10
100.37929099285662
20
64.57321834256453
10
110.37929099285661
20
64.573218342564545
0
LWPOLYLINE
5
158
100
AcDbEntity
8
0
100
AcDbPolyline
90
4
70
1
43
0.0
10
-56.62070900714356
20
64.573218342564559
10
-66.62070900714356
20
64.573218342564545
10
-66.62070900714356
20
-235.4267816574355
10
-56.62070900714356
20
-235.42678165743547
0
LINE
5
159
100
AcDbEntity
8
0
100
AcDbLine
10
-137.12070900714357
20
-135.42678165743544
30
0
11
-30.0950681500637
21
-135.42678165743541
31
0
0
LWPOLYLINE
5
160
100
AcDbEntity
8
0
100
AcDbPolyline
90
4
70
1
43
0.0
10
-124.62070900714355
20
-60.426781657435399
10
-137.12070900714357
20
-60.426781657435413
10
-137.12070900714343
20
-110.42678165743544
10
-124.62070900714359
20
-110.42678165743544
0
LWPOLYLINE
5
161
100
AcDbEntity
8
0
100
AcDbPolyline
90
4
70
1
43
0.0
10
-124.62070900714355
20
-160.42678165743541
10
-137.12070900714357
20
-160.42678165743541
10
-137.12070900714355
20
-210.42678165743541
10
-124.62070900714353
20
-210.42678165743547
0
LWPOLYLINE
5
162
100
AcDbEntity
8
0
100
AcDbPolyline
90
4
70
1
43
0.0
10
-124.62070900714357
20
-260.42678165743553
10
-137.1207090071436
20
-260.42678165743547
10
-137.1207090071436
20
-310.42678165743547
10
-124.62070900714357
20
-310.42678165743547
0
LWPOLYLINE
5
163
100
AcDbEntity
8
0
100
AcDbPolyline
90
4
70
1
43
0.0
10
-124.62070900714359
20
-10.42678165743542
10
-137.1207090071436
20
-10.42678165743542
10
-137.12070900714363
20
39.57321834256458
10
-124.62070900714359
20
39.573218342564559
0
LINE
5
164
100
AcDbEntity
8
0
100
AcDbLine
10
-28.120709007143549
20
164.57321834256459
30
0
11
71.879290992856454
21
164.57321834256459
31
0
0
LWPOLYLINE
5
165
100
AcDbEntity
8
0
100
AcDbPolyline
90
4
70
1
43
0.0
10
-28.120709007143546
20
-260.42678165743547
10
-40.620709007143546
20
-260.42678165743547
10
-40.620709007143546
20
-310.42678165743547
10
-28.120709007143546
20
-310.42678165743547
0
LWPOLYLINE
5
166
100
AcDbEntity
8
0
100
AcDbPolyline
90
4
70
1
43
0.0
10
-28.120709007143532
20
-210.42678165743547
10
-28.120709007143535
20
-160.42678165743547
10
-40.620709007143461
20
-160.42678165743541
10
-40.620709007143461
20
-210.42678165743547
0
LWPOLYLINE
5
167
100
AcDbEntity
8
0
100
AcDbPolyline
90
4
70
1
43
0.0
10
-28.120709007143546
20
39.57321834256458
10
-28.120709007143546
20
-10.426781657435422
10
-40.620709007143525
20
-10.426781657435411
10
-40.620709007143525
20
39.57321834256458
0
LWPOLYLINE
5
168
100
AcDbEntity
8
0
100
AcDbPolyline
90
4
70
1
43
0.0
10
-28.120709007143553
20
-110.42678165743544
10
-28.120709007143461
20
-60.426781657435399
10
-40.620709007143461
20
-60.42678165743542
10
-40.62070900714356
20
-110.42678165743544
0
LWPOLYLINE
5
169
100
AcDbEntity
8
0
100
AcDbPolyline
90
4
70
1
43
0.0
10
71.879290992856482
20
-310.41798584591874
10
84.379290992856482
20
-310.41798584591874
10
84.379290992856482
20
-260.41798584591874
10
71.879290992856482
20
-260.41798584591874
0
LWPOLYLINE
5
170
100
AcDbEntity
8
0
100
AcDbPolyline
90
4
70
1
43
0.0
10
71.879290992856482
20
39.582014154081278
10
84.379290992856468
20
39.582014154081278
10
84.379290992856468
20
-10.417985845918718
10
71.879290992856482
20
-10.417985845918718
0
LWPOLYLINE
5
171
100
AcDbEntity
8
0
100
AcDbPolyline
90
4
70
1
43
0.0
10
84.379290992856482
20
-160.41798584591874
10
71.879290992856482
20
-160.41798584591874
10
71.879290992856482
20
-210.41798584591874
10
84.379290992856482
20
-210.41798584591874
0
LWPOLYLINE
5
172
100
AcDbEntity
8
0
100
AcDbPolyline
90
4
70
1
43
0.0
10
84.379290992856468
20
-60.417985845918722
10
71.879290992856482
20
-60.417985845918722
10
71.879290992856482
20
-110.41798584591874
10
84.379290992856468
20
-110.41798584591874
0
LINE
5
173
100
AcDbEntity
8
0
100
AcDbLine
10
71.879290992856454
20
-135.42678165743541
30
0
11
180.87929099285648
21
-135.42678165743541
31
0
0
LWPOLYLINE
5
174
100
AcDbEntity
8
0
100
AcDbPolyline
90
4
70
1
43
0.0
10
180.87929099285651
20
-260.41798584591874
10
168.37929099285651
20
-260.41798584591874
10
168.37929099285651
20
-310.41798584591874
10
180.87929099285651
20
-310.41798584591874
0
LWPOLYLINE
5
175
100
AcDbEntity
8
0
100
AcDbPolyline
90
4
70
1
43
0.0
10
168.3792909928566
20
-160.41798584591874
10
168.3792909928566
20
-210.41798584591874
10
180.8792909928566
20
-210.41798584591874
10
180.8792909928566
20
-160.41798584591874
0
LWPOLYLINE
5
176
100
AcDbEntity
8
0
100
AcDbPolyline
90
4
70
1
43
0.0
10
180.87929099285657
20
-110.41798584591874
10
180.87929099285657
20
-60.417985845918729
10
168.37929099285657
20
-60.417985845918729
10
168.37929099285657
20
-110.41798584591874
0
LWPOLYLINE
5
177
100
AcDbEntity
8
0
100
AcDbPolyline
90
4
70
1
43
0.0
10
168.37929099285648
20
-10.417985845918727
10
168.37929099285648
20
39.582014154081271
10
180.87929099285648
20
39.582014154081271
10
180.87929099285648
20
-10.417985845918727
0
LINE
5
178
100
AcDbEntity
8
0
100
AcDbLine
10
-68.720161370827213
20
164.57321834256459
30
0
11
-68.720161370827199
21
55.573218342564552
31
0
0
LINE
5
179
100
AcDbEntity
8
0
100
AcDbLine
10
-337.1207090071436
20
110.07321834256446
30
0
11
-404.1207090071436
21
110.07321834256443
31
0
0
LINE
5
180
100
AcDbEntity
8
0
100
AcDbLine
10
-404.1207090071436
20
110.07321834256443
30
0
11
-404.12070900714355
21
-380.92678165743553
31
0
0
LINE
5
181
100
AcDbEntity
8
0
100
AcDbLine
10
-404.12070900714355
20
-380.92678165743553
30
0
11
-337.12070900714377
21
-380.92678165743553
31
0
0
LINE
5
182
100
AcDbEntity
8
0
100
AcDbLine
10
-337.12070900714377
20
-380.92678165743553
30
0
11
-337.1207090071436
21
110.07321834256446
31
0
0
LINE
5
183
100
AcDbEntity
8
0
100
AcDbLine
10
-337.1207090071436
20
110.07321834256446
30
0
11
-137.1207090071436
21
110.07321834256442
31
0
0
LINE
5
184
100
AcDbEntity
8
0
100
AcDbLine
10
-404.1207090071436
20
110.07321834256443
30
0
11
-391.6207090071436
21
110.07321834256443
31
0
0
LINE
5
185
100
AcDbEntity
8
0
100
AcDbLine
10
-391.62070900714048
20
-380.92678165743558
30
0
11
-404.12070900714349
21
-380.92678165743558
31
0
0
LINE
5
186
100
AcDbEntity
8
0
100
AcDbLine
10
-404.12070900714349
20
-380.92678165743558
30
0
11
-404.1207090071436
21
110.07321834256443
31
0
0
LINE
5
187
100
AcDbEntity
8
0
100
AcDbLine
10
-337.1207090071436
20
110.07321834256446
30
0
11
-349.62070900714536
21
110.07321834256439
31
0
0
LINE
5
188
100
AcDbEntity
8
0
100
AcDbLine
10
-349.62070900714605
20
-380.92678165743553
30
0
11
-337.12070900714377
21
-380.92678165743541
31
0
0
LINE
5
189
100
AcDbEntity
8
0
100
AcDbLine
10
-337.12070900714377
20
-380.92678165743541
30
0
11
-337.1207090071436
21
110.07321834256446
31
0
0
LWPOLYLINE
5
190
100
AcDbEntity
8
0
100
AcDbPolyline
90
4
70
1
43
0.0
10
-337.1207090071432
20
-60.626781657435309
10
-349.62070900714548
20
-60.626781657435416
10
-349.62070900714548
20
-10.22678165743541
10
-337.1207090071436
20
-10.226781657435282
0
LINE
5
191
100
AcDbEntity
8
0
100
AcDbLine
10
-349.62070900714599
20
-360.62678165743546
30
0
11
-349.62070900714599
21
-310.22678165743548
31
0
0
LWPOLYLINE
5
192
100
AcDbEntity
8
0
100
AcDbPolyline
90
4
70
1
43
0.0
10
-349.62070900714599
20
-160.62678165743534
10
-337.12070900714372
20
-160.62678165743532
10
-337.12070900714355
20
-110.22678165743528
10
-349.62070900714599
20
-110.22678165743534
0
LWPOLYLINE
5
193
100
AcDbEntity
8
0
100
AcDbPolyline
90
4
70
1
43
0.0
10
-337.12070900714366
20
-210.22678165743588
10
-349.62070900714605
20
-210.22678165743594
10
-349.62070900714605
20
-260.62678165743591
10
-337.12070900714377
20
-260.62678165743597
0
LINE
5
194
100
AcDbEntity
8
0
100
AcDbLine
10
-349.62070900714599
20
-310.22678165743548
30
0
11
-337.12070900714372
21
-310.22678165743542
31
0
0
LINE
5
195
100
AcDbEntity
8
0
100
AcDbLine
10
-337.12070900714372
20
-310.22678165743542
30
0
11
-337.12070900714372
21
-380.92678165743558
31
0
0
LWPOLYLINE
5
196
100
AcDbEntity
8
0
100
AcDbPolyline
90
4
70
1
43
0.0
10
-391.62070900714122
20
-210.22678165743596
10
-404.12070900714349
20
-210.22678165743594
10
-404.12070900714349
20
-260.62678165743603
10
-391.62070900714122
20
-260.62678165743603
0
LWPOLYLINE
5
197
100
AcDbEntity
8
0
100
AcDbPolyline
90
4
70
1
43
0.0
10
-404.12070900714355
20
-10.226781657435392
10
-391.62070900714127
20
-10.226781657435389
10
-391.62070900714127
20
-60.626781657435401
10
-404.12070900714355
20
-60.626781657435345
0
LINE
5
198
100
AcDbEntity
8
0
100
AcDbLine
10
-404.12070900714343
20
-310.22678165743548
30
0
11
-391.62070900714116
21
-310.22678165743554
31
0
0
LINE
5
199
100
AcDbEntity
8
0
100
AcDbLine
10
-404.12070900714343
20
-380.92678165743558
30
0
11
-404.12070900714343
21
-310.22678165743548
31
0
0
LWPOLYLINE
5
200
100
AcDbEntity
8
0
100
AcDbPolyline
90
4
70
1
43
0.0
10
-391.62070900714127
20
-110.22678165743534
10
-404.12070900714355
20
-110.22678165743528
10
-404.12070900714355
20
-160.6267816574352
10
-391.62070900714127
20
-160.62678165743534
0
LINE
5
201
100
AcDbEntity
8
0
100
AcDbLine
10
-391.62070900714116
20
-310.22678165743554
30
0
11
-391.62070900714116
21
-360.62678165743546
31
0
0
LINE
5
202
100
AcDbEntity
8
0
100
AcDbLine
10
-391.62070900714133
20
-35.426781657435392
30
0
11
-349.62070900714559
21
-35.426781657435413
31
0
0
LINE
5
203
100
AcDbEntity
8
0
100
AcDbLine
10
-391.62070900714133
20
-135.42678165743536
30
0
11
-349.62070900714605
21
-135.42678165743533
31
0
0
LINE
5
204
100
AcDbEntity
8
0
100
AcDbLine
10
-391.62070900714127
20
-235.42678165743598
30
0
11
-349.62070900714616
21
-235.42678165743592
31
0
0
LINE
5
205
100
AcDbEntity
8
0
100
AcDbLine
10
-391.62070900714122
20
-335.42678165743553
30
0
11
-349.62070900714605
21
-335.42678165743547
31
0
0
LWPOLYLINE
5
206
100
AcDbEntity
8
0
100
AcDbPolyline
90
2
70
1
43
0.0
10
-340.43073387664998
20
-556.42863205415301
10
-449.43073387664987
20
-556.42863205415301
42
-0.99999999999999989
0
LINE
5
207
100
AcDbEntity
8
0
100
AcDbLine
10
-394.93073387664992
20
-556.4286320541529
30
0
11
-394.93073387664992
21
-501.9286320541529
31
0
0
LWPOLYLINE
5
208
100
AcDbEntity
8
0
100
AcDbPolyline
90
4
70
1
43
0.0
10
-539.09696772669236
20
-258.47967929509912
10
-539.09696772669236
20
-208.07967929509911
10
-551.59696772669236
20
-208.07967929509911
10
-551.59696772669236
20
-258.47967929509912
0
LWPOLYLINE
5
209
100
AcDbEntity
8
0
100
AcDbPolyline
90
4
70
1
43
0.0
10
-539.09696772669236
20
-158.47967929509912
10
-539.09696772669236
20
-108.07967929509911
10
-551.59696772669236
20
-108.07967929509911
10
-551.59696772669236
20
-158.47967929509912
0
LINE
5
210
100
AcDbEntity
8
0
100
AcDbLine
10
-539.09696772669236
20
41.520320704900719
30
0
11
-539.09696772669236
21
57.720320704900715
31
0
0
LWPOLYLINE
5
211
100
AcDbEntity
8
0
100
AcDbPolyline
90
4
70
1
43
0.0
10
-606.09696772669236
20
-8.0796792950989715
10
-606.09696772669236
20
-58.47967929509899
10
-593.59696772669236
20
-58.479679295098975
10
-593.59696772669236
20
-8.0796792950989733
0
LINE
5
212
100
AcDbEntity
8
0
100
AcDbLine
10
-551.59696772669236
20
41.520320704900719
30
0
11
-539.09696772669236
21
41.520320704900719
31
0
0
LWPOLYLINE
5
213
100
AcDbEntity
8
0
100
AcDbPolyline
90
4
70
1
43
0.0
10
-593.59696772669236
20
-158.47967929509912
10
-593.59696772669236
20
-108.07967929509911
10
-606.09696772669236
20
-108.07967929509911
10
-606.09696772669236
20
-158.47967929509912
0
LINE
5
214
100
AcDbEntity
8
0
100
AcDbLine
10
-539.09696772669236
20
-378.77967929509913
30
0
11
-539.09696772669236
21
57.720320704900715
31
0
0
LWPOLYLINE
5
215
100
AcDbEntity
8
0
100
AcDbPolyline
90
4
70
1
43
0.0
10
-606.09696772669236
20
-208.07967929509911
10
-606.09696772669236
20
-258.47967929509912
10
-593.59696772669236
20
-258.47967929509912
10
-593.59696772669236
20
-208.07967929509911
0
LINE
5
216
100
AcDbEntity
8
0
100
AcDbLine
10
-551.59696772669236
20
57.720320704900715
30
0
11
-551.59696772669236
21
41.520320704900719
31
0
0
LINE
5
217
100
AcDbEntity
8
0
100
AcDbLine
10
-606.09696772669236
20
41.520320704900719
30
0
11
-593.59696772669236
21
41.520320704900719
31
0
0
LINE
5
218
100
AcDbEntity
8
0
100
AcDbLine
10
-539.09696772669236
20
-378.77967929509913
30
0
11
-539.09696772669236
21
57.720320704900715
31
0
0
LWPOLYLINE
5
219
100
AcDbEntity
8
0
100
AcDbPolyline
90
4
70
1
43
0.0
10
-539.09696772669236
20
-58.479679295098975
10
-539.09696772669236
20
-8.0796792950989875
10
-551.59696772669236
20
-8.0796792950989893
10
-551.59696772669236
20
-58.47967929509899
0
LINE
5
220
100
AcDbEntity
8
0
100
AcDbLine
10
-539.09696772669236
20
57.720320704900715
30
0
11
-606.09696772669236
21
57.720320704900715
31
0
0
LINE
5
221
100
AcDbEntity
8
0
100
AcDbLine
10
-606.09696772669236
20
-378.77967929509913
30
0
11
-606.09696772669236
21
57.720320704900715
31
0
0
LINE
5
222
100
AcDbEntity
8
0
100
AcDbLine
10
-593.59696772669236
20
-133.27967929509913
30
0
11
-551.59696772669236
21
-133.27967929509913
31
0
0
LINE
5
223
100
AcDbEntity
8
0
100
AcDbLine
10
-593.59696772669236
20
41.520320704900719
30
0
11
-593.59696772669236
21
57.720320704900715
31
0
0
LINE
5
224
100
AcDbEntity
8
0
100
AcDbLine
10
-551.59696772669236
20
-378.77967929509913
30
0
11
-539.09696772669236
21
-378.77967929509913
31
0
0
LINE
5
225
100
AcDbEntity
8
0
100
AcDbLine
10
-593.59696772669236
20
-378.77967929509913
30
0
11
-606.09696772669236
21
-378.77967929509913
31
0
0
LINE
5
226
100
AcDbEntity
8
0
100
AcDbLine
10
-606.09696772669236
20
-378.77967929509913
30
0
11
-539.09696772669236
21
-378.77967929509913
31
0
0
LINE
5
227
100
AcDbEntity
8
0
100
AcDbLine
10
-606.09696772669236
20
57.720320704900715
30
0
11
-593.59696772669236
21
57.720320704900715
31
0
0
LINE
5
228
100
AcDbEntity
8
0
100
AcDbLine
10
-593.59696772669236
20
-233.2796792950991
30
0
11
-551.59696772669236
21
-233.2796792950991
31
0
0
LINE
5
229
100
AcDbEntity
8
0
100
AcDbLine
10
-539.09696772669236
20
57.720320704900715
30
0
11
-551.59696772669236
21
57.720320704900715
31
0
0
LINE
5
230
100
AcDbEntity
8
0
100
AcDbLine
10
-606.09696772669236
20
57.720320704900715
30
0
11
-606.09696772669236
21
41.520320704900719
31
0
0
LINE
5
231
100
AcDbEntity
8
0
100
AcDbLine
10
-606.09696772669236
20
57.720320704900715
30
0
11
-606.09696772669236
21
-378.77967929509913
31
0
0
LINE
5
232
100
AcDbEntity
8
0
100
AcDbLine
10
-593.59696772669236
20
66.720320704900914
30
0
11
-551.59696772669236
21
66.720320704900914
31
0
0
LINE
5
233
100
AcDbEntity
8
0
100
AcDbLine
10
-593.59696772669236
20
-33.279679295098973
30
0
11
-551.59696772669236
21
-33.279679295098987
31
0
0
LINE
5
234
100
AcDbEntity
8
0
100
AcDbLine
10
-606.09696772669236
20
-357.85358623921877
30
0
11
-606.09696772669236
21
-308.07967929509908
31
0
0
LINE
5
235
100
AcDbEntity
8
0
100
AcDbLine
10
-606.09696772669236
20
-308.07967929509908
30
0
11
-593.59696772669236
21
-308.07967929509908
31
0
0
LINE
5
236
100
AcDbEntity
8
0
100
AcDbLine
10
-539.09696772669236
20
-308.07967929509908
30
0
11
-539.09696772669236
21
-357.85358623921888
31
0
0
LINE
5
237
100
AcDbEntity
8
0
100
AcDbLine
10
-551.59696772669236
20
-358.47967929509946
30
0
11
-551.59696772669236
21
-308.07967929509908
31
0
0
LINE
5
238
100
AcDbEntity
8
0
100
AcDbLine
10
-551.59696772669236
20
-308.07967929509908
30
0
11
-539.09696772669236
21
-308.07967929509908
31
0
0
LINE
5
239
100
AcDbEntity
8
0
100
AcDbLine
10
-593.59696772669236
20
-308.07967929509908
30
0
11
-593.59696772669236
21
-358.47967929509963
31
0
0
LINE
5
240
100
AcDbEntity
8
0
100
AcDbLine
10
-593.59696772669236
20
-333.27967929509941
30
0
11
-551.59696772669236
21
-333.2796792950993
31
0
0
LINE
5
241
100
AcDbEntity
8
0
100
AcDbLine
10
-337.12070900714355
20
39.373218342564378
30
0
11
-337.1207090071436
21
100.92074377244494
31
0
0
LINE
5
242
100
AcDbEntity
8
0
100
AcDbLine
10
-404.12070900714366
20
100.92074377244498
30
0
11
-404.1207090071436
21
39.373218342564471
31
0
0
LINE
5
243
100
AcDbEntity
8
0
100
AcDbLine
10
-404.1207090071436
20
39.373218342564471
30
0
11
-391.62070900714133
21
39.373218342564456
31
0
0
LINE
5
244
100
AcDbEntity
8
0
100
AcDbLine
10
-349.62070900714559
20
89.773218342565016
30
0
11
-349.62070900714582
21
39.373218342564364
31
0
0
LINE
5
245
100
AcDbEntity
8
0
100
AcDbLine
10
-391.62070900714133
20
39.373218342564456
30
0
11
-391.62070900714161
21
89.77321834256513
31
0
0
LINE
5
246
100
AcDbEntity
8
0
100
AcDbLine
10
-391.62070900714161
20
64.573218342564601
30
0
11
-349.62070900714571
21
64.573218342564502
31
0
0
LINE
5
247
100
AcDbEntity
8
0
100
AcDbLine
10
-349.62070900714582
20
39.373218342564364
30
0
11
-337.12070900714355
21
39.373218342564378
31
0
0
LINE
5
248
100
AcDbEntity
8
0
100
AcDbLine
10
-391.62070900714173
20
89.170705253559873
30
0
11
-391.6207090071436
21
110.07321834256443
31
0
0
LINE
5
249
100
AcDbEntity
8
0
100
AcDbLine
10
-349.62070900714559
20
89.773218342565016
30
0
11
-349.62070900714536
21
110.07321834256439
31
0
0
LINE
5
250
100
AcDbEntity
8
0
100
AcDbLine
10
-391.62070900714048
20
-380.92678165743558
30
0
11
-391.62070900714116
21
-360.62678165743546
31
0
0
LINE
5
251
100
AcDbEntity
8
0
100
AcDbLine
10
-349.62070900714605
20
-380.92678165743553
30
0
11
-349.62070900714599
21
-360.62678165743546
31
0
0
LINE
5
252
100
AcDbEntity
8
0
100
AcDbLine
10
-593.59696772669236
20
-358.47967929509963
30
0
11
-593.59696772669236
21
-378.77967929509913
31
0
0
LINE
5
253
100
AcDbEntity
8
0
100
AcDbLine
10
-551.59696772669236
20
-358.47967929509946
30
0
11
-551.59696772669236
21
-378.77967929509913
31
0
0
LWPOLYLINE
5
254
100
AcDbEntity
8
0
100
AcDbPolyline
90
4
70
1
43
0.0
10
-568.34696772669236
20
57.720320704900729
10
-576.84696772669236
20
57.720320704900701
10
-576.84696772669236
20
-328.77967929509913
10
-568.34696772669236
20
-328.77967929509913
0
LINE
5
255
100
AcDbEntity
8
0
100
AcDbLine
10
-124.62070900714355
20
-160.42678165743541
30
0
11
-40.620709007143461
21
-160.42678165743541
31
0
0
LINE
5
256
100
AcDbEntity
8
0
100
AcDbLine
10
-584.93073387664992
20
-556.4286320541529
30
0
11
-584.93073387664992
21
-501.9286320541529
31
0
0
ARC
5
257
100
AcDbEntity
8
0
100
AcDbCircle
10
-584.93073387664992
20
-556.42863205415301
30
0
40
54.499999999999957
210
0
220
-0
230
1
100
AcDbArc
50
0
51
180
0
LINE
5
258
100
AcDbEntity
8
0
100
AcDbLine
10
-639.43073387664992
20
-556.42863205415301
30
0
11
-530.43073387664992
21
-556.42863205415301
31
0
0
LINE
5
259
100
AcDbEntity
8
0
100
AcDbLine
10
-530.43073387664992
20
-556.42863205415301
30
0
11
-543.13073387664997
21
-556.42863205415301
31
0
0
LINE
5
260
100
AcDbEntity
8
0
100
AcDbLine
10
-543.13073387664997
20
-556.42863205415301
30
0
11
-543.13073387664997
21
-600
31
0
0
LINE
5
261
100
AcDbEntity
8
0
100
AcDbLine
10
-543.13073387664997
20
-600
30
0
11
-530.43073387664992
21
-600
31
0
0
LINE
5
262
100
AcDbEntity
8
0
100
AcDbLine
10
-530.43073387664992
20
-600
30
0
11
-530.43073387664992
21
-556.42863205415301
31
0
0
LINE
5
263
100
AcDbEntity
8
0
100
AcDbLine
10
-639.43073387664992
20
-556.42863205415301
30
0
11
-626.73073387664988
21
-556.42863205415301
31
0
0
LINE
5
264
100
AcDbEntity
8
0
100
AcDbLine
10
-626.73073387664988
20
-556.42863205415301
30
0
11
-626.73073387664988
21
-605.96105639153234
31
0
0
LINE
5
265
100
AcDbEntity
8
0
100
AcDbLine
10
-626.73073387664988
20
-605.96105639153234
30
0
11
-639.43073387664992
21
-605.96105639153234
31
0
0
LINE
5
266
100
AcDbEntity
8
0
100
AcDbLine
10
-639.43073387664992
20
-605.96105639153234
30
0
11
-639.43073387664992
21
-556.42863205415301
31
0
0
LINE
5
267
100
AcDbEntity
8
0
100
AcDbLine
10
-543.13073387664997
20
-556.42863205415301
30
0
11
-585.13073387665008
21
-556.42863205415301
31
0
0
LINE
5
268
100
AcDbEntity
8
0
100
AcDbLine
10
-585.13073387665008
20
-556.42863205415301
30
0
11
-585.13073387665008
21
-602.64309556069929
31
0
0
LINE
5
269
100
AcDbEntity
8
0
100
AcDbLine
10
-585.13073387665008
20
-602.64309556069929
30
0
11
-543.13073387664997
21
-602.64309556069929
31
0
0
LINE
5
270
100
AcDbEntity
8
0
100
AcDbLine
10
-543.13073387664997
20
-602.64309556069929
30
0
11
-543.13073387664997
21
-556.42863205415301
31
0
0
LINE
5
271
100
AcDbEntity
8
0
100
AcDbLine
10
-585.13073387665008
20
-556.42863205415301
30
0
11
-626.53073387664995
21
-556.42863205415301
31
0
0
LINE
5
272
100
AcDbEntity
8
0
100
AcDbLine
10
-626.53073387664995
20
-556.42863205415301
30
0
11
-626.53073387664995
21
-604.4286320541529
31
0
0
LINE
5
273
100
AcDbEntity
8
0
100
AcDbLine
10
-626.53073387664995
20
-604.4286320541529
30
0
11
-585.13073387665008
21
-604.4286320541529
31
0
0
LINE
5
274
100
AcDbEntity
8
0
100
AcDbLine
10
-585.13073387665008
20
-604.4286320541529
30
0
11
-585.13073387665008
21
-556.42863205415301
31
0
0
LINE
5
275
100
AcDbEntity
8
0
100
AcDbLine
10
-137.12070900714357
20
55.573218342564552
30
0
11
-28.116204009796171
21
55.573218342564552
31
0
0
ENDSEC
0
SECTION
2
OBJECTS
0
DICTIONARY
5
C
100
AcDbDictionary
3
ACAD_GROUP
350
D
3
ACAD_MLINESTYLE
350
17
0
DICTIONARY
5
D
100
AcDbDictionary
0
DICTIONARY
5
1A
330
C
100
AcDbDictionary
0
DICTIONARY
5
17
100
AcDbDictionary
0
ENDSEC
0
EOF
